ISO-10303-21;
HEADER;
FILE_DESCRIPTION (( 'STEP AP203' ),
    '1' );
FILE_NAME ('Q-ZDWWP-R41-12.7-1064-SHM.STEP',
    '2020-12-22T09:02:15',
    ( '' ),
    ( '' ),
    'SwSTEP 2.0',
    'SolidWorks 2020',
    '' );
FILE_SCHEMA (( 'CONFIG_CONTROL_DESIGN' ));
ENDSEC;

DATA;
#1 = ORIENTED_EDGE ( 'NONE', *, *, #6, .T. ) ;
#2 = ADVANCED_FACE ( 'NONE', ( #208 ), #16, .F. ) ;
#3 = FACE_OUTER_BOUND ( 'NONE', #101, .T. ) ;
#4 = PERSON_AND_ORGANIZATION ( #89, #51 ) ;
#5 = ORIENTED_EDGE ( 'NONE', *, *, #331, .F. ) ;
#6 = EDGE_CURVE ( 'NONE', #193, #303, #237, .T. ) ;
#7 = LINE ( 'NONE', #54, #325 ) ;
#8 = CALENDAR_DATE ( 2020, 22, 12 ) ;
#9 = PERSON_AND_ORGANIZATION ( #89, #51 ) ;
#10 = DIRECTION ( 'NONE',  ( 0.000000000000000000, 0.000000000000000000, 1.000000000000000000 ) ) ;
#11 = ADVANCED_FACE ( 'NONE', ( #91 ), #62, .F. ) ;
#12 = COORDINATED_UNIVERSAL_TIME_OFFSET ( 8, 0, .AHEAD. ) ;
#13 = ORIENTED_EDGE ( 'NONE', *, *, #6, .F. ) ;
#14 = ADVANCED_FACE ( 'NONE', ( #39 ), #140, .T. ) ;
#15 = CARTESIAN_POINT ( 'NONE',  ( -3.000000000000000000, 0.000000000000000000, 12.69999999999999929 ) ) ;
#16 = PLANE ( 'NONE',  #334 ) ;
#17 = AXIS2_PLACEMENT_3D ( 'NONE', #302, #146, #245 ) ;
#18 = AXIS2_PLACEMENT_3D ( 'NONE', #212, #264, #236 ) ;
#19 = CARTESIAN_POINT ( 'NONE',  ( -1.614212418857619014, 0.000000000000000000, 0.000000000000000000 ) ) ;
#20 = EDGE_LOOP ( 'NONE', ( #277, #85 ) ) ;
#21 = CC_DESIGN_PERSON_AND_ORGANIZATION_ASSIGNMENT ( #9, #80, ( #29 ) ) ;
#22 = DIRECTION ( 'NONE',  ( 0.000000000000000000, 0.000000000000000000, 1.000000000000000000 ) ) ;
#23 = CARTESIAN_POINT ( 'NONE',  ( -1.500000000000000444, 7.776507174585692163E-16, -6.349999999999999645 ) ) ;
#24 = AXIS2_PLACEMENT_3D ( 'NONE', #233, #116, #289 ) ;
#25 = ORIENTED_EDGE ( 'NONE', *, *, #298, .T. ) ;
#26 = CC_DESIGN_PERSON_AND_ORGANIZATION_ASSIGNMENT ( #103, #57, ( #305 ) ) ;
#27 = ORIENTED_EDGE ( 'NONE', *, *, #272, .F. ) ;
#28 = EDGE_CURVE ( 'NONE', #227, #31, #268, .T. ) ;
#29 = SECURITY_CLASSIFICATION ( '', '', #253 ) ;
#30 = DATE_AND_TIME ( #8, #164 ) ;
#31 = VERTEX_POINT ( 'NONE', #214 ) ;
#32 = FACE_OUTER_BOUND ( 'NONE', #206, .T. ) ;
#33 = DATE_AND_TIME ( #185, #170 ) ;
#34 = DIRECTION ( 'NONE',  ( 0.000000000000000000, 0.000000000000000000, 1.000000000000000000 ) ) ;
#35 = PERSON_AND_ORGANIZATION ( #89, #51 ) ;
#36 = APPLICATION_PROTOCOL_DEFINITION ( 'international standard', 'config_control_design', 1994, #56 ) ;
#37 = CARTESIAN_POINT ( 'NONE',  ( 3.000000000000000888, 0.000000000000000000, 6.349999999999999645 ) ) ;
#38 = DIRECTION ( 'NONE',  ( 0.000000000000000000, 0.000000000000000000, 1.000000000000000000 ) ) ;
#39 = FACE_OUTER_BOUND ( 'NONE', #187, .T. ) ;
#40 = DIRECTION ( 'NONE',  ( -1.000000000000000000, -0.000000000000000000, -0.000000000000000000 ) ) ;
#41 = LOCAL_TIME ( 17, 2, 15.00000000000000000, #81 ) ;
#42 = LINE ( 'NONE', #43, #327 ) ;
#43 = CARTESIAN_POINT ( 'NONE',  ( -1.614212418857619014, 7.776507174585692163E-16, -6.349999999999999645 ) ) ;
#44 = EDGE_LOOP ( 'NONE', ( #5, #183 ) ) ;
#45 = CC_DESIGN_SECURITY_CLASSIFICATION ( #29, ( #305 ) ) ;
#46 = EDGE_LOOP ( 'NONE', ( #158, #73, #1, #241 ) ) ;
#47 = PLANE ( 'NONE',  #195 ) ;
#48 = DATE_TIME_ROLE ( 'creation_date' ) ;
#49 = ORIENTED_EDGE ( 'NONE', *, *, #244, .F. ) ;
#50 = DIRECTION ( 'NONE',  ( -1.000000000000000000, -0.000000000000000000, -0.000000000000000000 ) ) ;
#51 = ORGANIZATION ( 'UNSPECIFIED', 'UNSPECIFIED', '' ) ;
#52 = DATE_AND_TIME ( #209, #41 ) ;
#53 = ORIENTED_EDGE ( 'NONE', *, *, #234, .T. ) ;
#54 = CARTESIAN_POINT ( 'NONE',  ( -1.614212418857619014, 0.000000000000000000, 6.349999999999999645 ) ) ;
#55 = PERSON_AND_ORGANIZATION ( #89, #51 ) ;
#56 = APPLICATION_CONTEXT ( 'configuration controlled 3d designs of mechanical parts and assemblies' ) ;
#57 = PERSON_AND_ORGANIZATION_ROLE ( 'design_supplier' ) ;
#58 = CARTESIAN_POINT ( 'NONE',  ( 0.000000000000000000, 0.000000000000000000, 0.000000000000000000 ) ) ;
#59 = VECTOR ( 'NONE', #40, 1000.000000000000000 ) ;
#60 = CIRCLE ( 'NONE', #225, 12.69999999999999929 ) ;
#61 = FACE_OUTER_BOUND ( 'NONE', #20, .T. ) ;
#62 = CYLINDRICAL_SURFACE ( 'NONE', #190, 6.349999999999999645 ) ;
#63 = DIRECTION ( 'NONE',  ( 0.000000000000000000, 0.000000000000000000, 1.000000000000000000 ) ) ;
#64 = FACE_OUTER_BOUND ( 'NONE', #46, .T. ) ;
#65 = DIRECTION ( 'NONE',  ( -1.000000000000000000, -0.000000000000000000, -0.000000000000000000 ) ) ;
#66 = CC_DESIGN_PERSON_AND_ORGANIZATION_ASSIGNMENT ( #232, #110, ( #305 ) ) ;
#67 = DIRECTION ( 'NONE',  ( 0.000000000000000000, 0.000000000000000000, -1.000000000000000000 ) ) ;
#68 = ORIENTED_EDGE ( 'NONE', *, *, #307, .F. ) ;
#69 = DIRECTION ( 'NONE',  ( 1.000000000000000000, 0.000000000000000000, 0.000000000000000000 ) ) ;
#70 = CIRCLE ( 'NONE', #86, 6.349999999999999645 ) ;
#71 = AXIS2_PLACEMENT_3D ( 'NONE', #220, #218, #67 ) ;
#72 = PRODUCT ( 'Q-ZDWWP-R41-12.7-1064-SHM', 'Q-ZDWWP-R41-12.7-1064-SHM', '', ( #310 ) ) ;
#73 = ORIENTED_EDGE ( 'NONE', *, *, #141, .T. ) ;
#74 = CARTESIAN_POINT ( 'NONE',  ( 3.000000000000000888, 0.000000000000000000, 0.000000000000000000 ) ) ;
#75 = COORDINATED_UNIVERSAL_TIME_OFFSET ( 8, 0, .AHEAD. ) ;
#76 = VERTEX_POINT ( 'NONE', #83 ) ;
#77 = DIRECTION ( 'NONE',  ( 0.000000000000000000, 0.000000000000000000, 1.000000000000000000 ) ) ;
#78 = ORIENTED_EDGE ( 'NONE', *, *, #231, .F. ) ;
#79 = CARTESIAN_POINT ( 'NONE',  ( -1.500000000000000444, 0.000000000000000000, 6.349999999999999645 ) ) ;
#80 = PERSON_AND_ORGANIZATION_ROLE ( 'classification_officer' ) ;
#81 = COORDINATED_UNIVERSAL_TIME_OFFSET ( 8, 0, .AHEAD. ) ;
#82 = EDGE_CURVE ( 'NONE', #76, #198, #70, .T. ) ;
#83 = CARTESIAN_POINT ( 'NONE',  ( 1.500000000000000888, 0.000000000000000000, 6.349999999999999645 ) ) ;
#84 = COORDINATED_UNIVERSAL_TIME_OFFSET ( 8, 0, .AHEAD. ) ;
#85 = ORIENTED_EDGE ( 'NONE', *, *, #118, .T. ) ;
#86 = AXIS2_PLACEMENT_3D ( 'NONE', #163, #296, #63 ) ;
#87 = APPROVAL_PERSON_ORGANIZATION ( #315, #314, #318 ) ;
#88 = CARTESIAN_POINT ( 'NONE',  ( -1.500000000000000444, 0.000000000000000000, 0.000000000000000000 ) ) ;
#89 = PERSON ( 'UNSPECIFIED', 'UNSPECIFIED', 'UNSPECIFIED', ('UNSPECIFIED'), ('UNSPECIFIED'), ('UNSPECIFIED') ) ;
#90 = EDGE_CURVE ( 'NONE', #313, #152, #117, .T. ) ;
#91 = FACE_OUTER_BOUND ( 'NONE', #224, .T. ) ;
#92 = CC_DESIGN_APPROVAL ( #106, ( #29 ) ) ;
#93 = CC_DESIGN_DATE_AND_TIME_ASSIGNMENT ( #52, #48, ( #215 ) ) ;
#94 = CARTESIAN_POINT ( 'NONE',  ( 3.000000000000000000, 0.000000000000000000, 0.000000000000000000 ) ) ;
#95 = FACE_BOUND ( 'NONE', #332, .T. ) ;
#96 = ORIENTED_EDGE ( 'NONE', *, *, #139, .F. ) ;
#97 = ORIENTED_EDGE ( 'NONE', *, *, #28, .F. ) ;
#98 = DIRECTION ( 'NONE',  ( 0.000000000000000000, 0.000000000000000000, 1.000000000000000000 ) ) ;
#99 = AXIS2_PLACEMENT_3D ( 'NONE', #142, #263, #10 ) ;
#100 = VECTOR ( 'NONE', #154, 1000.000000000000000 ) ;
#101 = EDGE_LOOP ( 'NONE', ( #174, #222, #25, #127 ) ) ;
#102 = CARTESIAN_POINT ( 'NONE',  ( -2.999999999999999556, 0.000000000000000000, 6.349999999999999645 ) ) ;
#103 = PERSON_AND_ORGANIZATION ( #89, #51 ) ;
#104 = EDGE_LOOP ( 'NONE', ( #96, #49, #53, #293 ) ) ;
#105 = LINE ( 'NONE', #159, #100 ) ;
#106 = APPROVAL ( #205, 'UNSPECIFIED' ) ;
#107 =( GEOMETRIC_REPRESENTATION_CONTEXT ( 3 ) GLOBAL_UNCERTAINTY_ASSIGNED_CONTEXT ( ( #265 ) ) GLOBAL_UNIT_ASSIGNED_CONTEXT ( ( #149, #278, #162 ) ) REPRESENTATION_CONTEXT ( 'NONE', 'WORKASPACE' ) );
#108 = APPROVAL_ROLE ( '' ) ;
#109 = ORIENTED_EDGE ( 'NONE', *, *, #143, .F. ) ;
#110 = PERSON_AND_ORGANIZATION_ROLE ( 'creator' ) ;
#111 = DIRECTION ( 'NONE',  ( -1.000000000000000000, -0.000000000000000000, -0.000000000000000000 ) ) ;
#112 = DIRECTION ( 'NONE',  ( -1.000000000000000000, -0.000000000000000000, -0.000000000000000000 ) ) ;
#113 = CYLINDRICAL_SURFACE ( 'NONE', #297, 6.349999999999999645 ) ;
#114 = CARTESIAN_POINT ( 'NONE',  ( -1.500000000000000444, 6.349999999999999645, 0.000000000000000000 ) ) ;
#115 = AXIS2_PLACEMENT_3D ( 'NONE', #19, #112, #239 ) ;
#116 = DIRECTION ( 'NONE',  ( -1.000000000000000000, -0.000000000000000000, -0.000000000000000000 ) ) ;
#117 = LINE ( 'NONE', #168, #59 ) ;
#118 = EDGE_CURVE ( 'NONE', #152, #303, #120, .T. ) ;
#119 = CC_DESIGN_PERSON_AND_ORGANIZATION_ASSIGNMENT ( #135, #235, ( #72 ) ) ;
#120 = CIRCLE ( 'NONE', #99, 12.69999999999999929 ) ;
#121 = AXIS2_PLACEMENT_3D ( 'NONE', #58, #261, #189 ) ;
#122 = CARTESIAN_POINT ( 'NONE',  ( 3.000000000000000000, 0.000000000000000000, 12.69999999999999929 ) ) ;
#123 = DIRECTION ( 'NONE',  ( -1.000000000000000000, -0.000000000000000000, -0.000000000000000000 ) ) ;
#124 = AXIS2_PLACEMENT_3D ( 'NONE', #230, #50, #77 ) ;
#125 = VERTEX_POINT ( 'NONE', #37 ) ;
#126 = APPLICATION_CONTEXT ( 'configuration controlled 3d designs of mechanical parts and assemblies' ) ;
#127 = ORIENTED_EDGE ( 'NONE', *, *, #234, .F. ) ;
#128 = MANIFOLD_SOLID_BREP ( 'Ðý×', #144 ) ;
#129 = DIRECTION ( 'NONE',  ( 0.000000000000000000, 0.000000000000000000, -1.000000000000000000 ) ) ;
#130 = DATE_AND_TIME ( #226, #322 ) ;
#131 = VERTEX_POINT ( 'NONE', #138 ) ;
#132 = CYLINDRICAL_SURFACE ( 'NONE', #155, 6.349999999999999645 ) ;
#133 = CC_DESIGN_PERSON_AND_ORGANIZATION_ASSIGNMENT ( #55, #186, ( #215 ) ) ;
#134 = DIRECTION ( 'NONE',  ( -0.000000000000000000, 0.000000000000000000, 1.000000000000000000 ) ) ;
#135 = PERSON_AND_ORGANIZATION ( #89, #51 ) ;
#136 = APPROVAL_PERSON_ORGANIZATION ( #4, #259, #287 ) ;
#137 = DESIGN_CONTEXT ( 'detailed design', #126, 'design' ) ;
#138 = CARTESIAN_POINT ( 'NONE',  ( 3.000000000000000888, 7.776507174585692163E-16, -6.349999999999999645 ) ) ;
#139 = EDGE_CURVE ( 'NONE', #131, #198, #273, .T. ) ;
#140 = CYLINDRICAL_SURFACE ( 'NONE', #115, 12.69999999999999929 ) ;
#141 = EDGE_CURVE ( 'NONE', #313, #193, #242, .T. ) ;
#142 = CARTESIAN_POINT ( 'NONE',  ( -3.000000000000000000, 0.000000000000000000, 0.000000000000000000 ) ) ;
#143 = EDGE_CURVE ( 'NONE', #31, #227, #270, .T. ) ;
#144 = CLOSED_SHELL ( 'NONE', ( #14, #11, #279, #299, #274, #250, #329, #194, #197, #2 ) ) ;
#145 = CARTESIAN_POINT ( 'NONE',  ( -1.614212418857619014, 7.776507174585692163E-16, -6.349999999999999645 ) ) ;
#146 = DIRECTION ( 'NONE',  ( -1.000000000000000000, -0.000000000000000000, -0.000000000000000000 ) ) ;
#147 = AXIS2_PLACEMENT_3D ( 'NONE', #333, #321, #191 ) ;
#148 = ORIENTED_EDGE ( 'NONE', *, *, #231, .T. ) ;
#149 =( LENGTH_UNIT ( ) NAMED_UNIT ( * ) SI_UNIT ( .MILLI., .METRE. ) );
#150 = EDGE_LOOP ( 'NONE', ( #306, #280 ) ) ;
#151 = PLANE ( 'NONE',  #18 ) ;
#152 = VERTEX_POINT ( 'NONE', #172 ) ;
#153 = VECTOR ( 'NONE', #173, 1000.000000000000000 ) ;
#154 = DIRECTION ( 'NONE',  ( -1.000000000000000000, -0.000000000000000000, -0.000000000000000000 ) ) ;
#155 = AXIS2_PLACEMENT_3D ( 'NONE', #228, #286, #34 ) ;
#156 = SHAPE_DEFINITION_REPRESENTATION ( #211, #204 ) ;
#157 = EDGE_CURVE ( 'NONE', #166, #238, #335, .T. ) ;
#158 = ORIENTED_EDGE ( 'NONE', *, *, #90, .F. ) ;
#159 = CARTESIAN_POINT ( 'NONE',  ( -1.614212418857619014, 0.000000000000000000, 6.349999999999999645 ) ) ;
#160 = CALENDAR_DATE ( 2020, 22, 12 ) ;
#161 = APPROVAL_DATE_TIME ( #30, #106 ) ;
#162 =( NAMED_UNIT ( * ) SI_UNIT ( $, .STERADIAN. ) SOLID_ANGLE_UNIT ( ) );
#163 = CARTESIAN_POINT ( 'NONE',  ( 1.500000000000000888, 0.000000000000000000, 0.000000000000000000 ) ) ;
#164 = LOCAL_TIME ( 17, 2, 15.00000000000000000, #312 ) ;
#165 = CARTESIAN_POINT ( 'NONE',  ( -3.000000000000000000, 0.000000000000000000, 0.000000000000000000 ) ) ;
#166 = VERTEX_POINT ( 'NONE', #23 ) ;
#167 = CARTESIAN_POINT ( 'NONE',  ( -1.614212418857619014, 0.000000000000000000, 0.000000000000000000 ) ) ;
#168 = CARTESIAN_POINT ( 'NONE',  ( -1.614212418857619014, 1.555301434917138433E-15, -12.69999999999999929 ) ) ;
#169 = VECTOR ( 'NONE', #295, 1000.000000000000000 ) ;
#170 = LOCAL_TIME ( 17, 2, 15.00000000000000000, #12 ) ;
#171 = CC_DESIGN_APPROVAL ( #314, ( #215 ) ) ;
#172 = CARTESIAN_POINT ( 'NONE',  ( -3.000000000000000000, 1.555301434917138433E-15, -12.69999999999999929 ) ) ;
#173 = DIRECTION ( 'NONE',  ( -1.000000000000000000, -0.000000000000000000, -0.000000000000000000 ) ) ;
#174 = ORIENTED_EDGE ( 'NONE', *, *, #320, .F. ) ;
#175 = ORIENTED_EDGE ( 'NONE', *, *, #157, .T. ) ;
#176 = EDGE_CURVE ( 'NONE', #166, #31, #42, .T. ) ;
#177 = AXIS2_PLACEMENT_3D ( 'NONE', #202, #290, #178 ) ;
#178 = DIRECTION ( 'NONE',  ( 0.000000000000000000, 0.000000000000000000, 1.000000000000000000 ) ) ;
#179 = FACE_OUTER_BOUND ( 'NONE', #104, .T. ) ;
#180 = FACE_BOUND ( 'NONE', #199, .T. ) ;
#181 = EDGE_LOOP ( 'NONE', ( #78, #276 ) ) ;
#182 = DIRECTION ( 'NONE',  ( -1.000000000000000000, -0.000000000000000000, -0.000000000000000000 ) ) ;
#183 = ORIENTED_EDGE ( 'NONE', *, *, #157, .F. ) ;
#184 = CARTESIAN_POINT ( 'NONE',  ( 3.000000000000000000, 0.000000000000000000, 0.000000000000000000 ) ) ;
#185 = CALENDAR_DATE ( 2020, 22, 12 ) ;
#186 = PERSON_AND_ORGANIZATION_ROLE ( 'creator' ) ;
#187 = EDGE_LOOP ( 'NONE', ( #148, #330, #68, #13 ) ) ;
#188 = DATE_AND_TIME ( #160, #292 ) ;
#189 = DIRECTION ( 'NONE',  ( 1.000000000000000000, 0.000000000000000000, 0.000000000000000000 ) ) ;
#190 = AXIS2_PLACEMENT_3D ( 'NONE', #167, #324, #266 ) ;
#191 = DIRECTION ( 'NONE',  ( 0.000000000000000000, 0.000000000000000000, 1.000000000000000000 ) ) ;
#192 = DIRECTION ( 'NONE',  ( 1.000000000000000000, 0.000000000000000000, 0.000000000000000000 ) ) ;
#193 = VERTEX_POINT ( 'NONE', #122 ) ;
#194 = ADVANCED_FACE ( 'NONE', ( #64 ), #196, .T. ) ;
#195 = AXIS2_PLACEMENT_3D ( 'NONE', #210, #252, #129 ) ;
#196 = CYLINDRICAL_SURFACE ( 'NONE', #254, 12.69999999999999929 ) ;
#197 = ADVANCED_FACE ( 'NONE', ( #328, #95 ), #311, .F. ) ;
#198 = VERTEX_POINT ( 'NONE', #283 ) ;
#199 = EDGE_LOOP ( 'NONE', ( #97, #109 ) ) ;
#200 = CARTESIAN_POINT ( 'NONE',  ( -1.614212418857619014, 0.000000000000000000, 0.000000000000000000 ) ) ;
#201 = ORIENTED_EDGE ( 'NONE', *, *, #244, .T. ) ;
#202 = CARTESIAN_POINT ( 'NONE',  ( 1.500000000000000888, 0.000000000000000000, 0.000000000000000000 ) ) ;
#203 = DIRECTION ( 'NONE',  ( 0.000000000000000000, 0.000000000000000000, 1.000000000000000000 ) ) ;
#204 = ADVANCED_BREP_SHAPE_REPRESENTATION ( 'Q-ZDWWP-R41-12.7-1064-SHM', ( #128, #121 ), #107 ) ;
#205 = APPROVAL_STATUS ( 'not_yet_approved' ) ;
#206 = EDGE_LOOP ( 'NONE', ( #285, #175, #248, #247 ) ) ;
#207 = DIRECTION ( 'NONE',  ( -1.000000000000000000, 0.000000000000000000, -0.000000000000000000 ) ) ;
#208 = FACE_OUTER_BOUND ( 'NONE', #44, .T. ) ;
#209 = CALENDAR_DATE ( 2020, 22, 12 ) ;
#210 = CARTESIAN_POINT ( 'NONE',  ( -3.000000000000000000, 6.349999999999999645, 0.000000000000000000 ) ) ;
#211 = PRODUCT_DEFINITION_SHAPE ( 'NONE', 'NONE',  #215 ) ;
#212 = CARTESIAN_POINT ( 'NONE',  ( 1.500000000000000444, 6.349999999999999645, 0.000000000000000000 ) ) ;
#213 = CIRCLE ( 'NONE', #269, 12.69999999999999929 ) ;
#214 = CARTESIAN_POINT ( 'NONE',  ( -2.999999999999999556, 7.776507174585692163E-16, -6.349999999999999645 ) ) ;
#215 = PRODUCT_DEFINITION ( 'UNKNOWN', '', #305, #137 ) ;
#216 = AXIS2_PLACEMENT_3D ( 'NONE', #74, #294, #249 ) ;
#217 = CC_DESIGN_DATE_AND_TIME_ASSIGNMENT ( #188, #258, ( #29 ) ) ;
#218 = DIRECTION ( 'NONE',  ( 1.000000000000000000, 0.000000000000000000, 0.000000000000000000 ) ) ;
#219 = CC_DESIGN_APPROVAL ( #259, ( #305 ) ) ;
#220 = CARTESIAN_POINT ( 'NONE',  ( -1.500000000000000444, 0.000000000000000000, 0.000000000000000000 ) ) ;
#221 = ORIENTED_EDGE ( 'NONE', *, *, #176, .T. ) ;
#222 = ORIENTED_EDGE ( 'NONE', *, *, #139, .T. ) ;
#223 = CYLINDRICAL_SURFACE ( 'NONE', #147, 6.349999999999999645 ) ;
#224 = EDGE_LOOP ( 'NONE', ( #251, #221, #309, #27 ) ) ;
#225 = AXIS2_PLACEMENT_3D ( 'NONE', #165, #304, #38 ) ;
#226 = CALENDAR_DATE ( 2020, 22, 12 ) ;
#227 = VERTEX_POINT ( 'NONE', #102 ) ;
#228 = CARTESIAN_POINT ( 'NONE',  ( -1.614212418857619014, 0.000000000000000000, 0.000000000000000000 ) ) ;
#229 = APPROVAL_STATUS ( 'not_yet_approved' ) ;
#230 = CARTESIAN_POINT ( 'NONE',  ( 3.000000000000000888, 0.000000000000000000, 0.000000000000000000 ) ) ;
#231 = EDGE_CURVE ( 'NONE', #193, #313, #213, .T. ) ;
#232 = PERSON_AND_ORGANIZATION ( #89, #51 ) ;
#233 = CARTESIAN_POINT ( 'NONE',  ( -2.999999999999999556, 0.000000000000000000, 0.000000000000000000 ) ) ;
#234 = EDGE_CURVE ( 'NONE', #125, #76, #105, .T. ) ;
#235 = PERSON_AND_ORGANIZATION_ROLE ( 'design_owner' ) ;
#236 = DIRECTION ( 'NONE',  ( -0.000000000000000000, 0.000000000000000000, 1.000000000000000000 ) ) ;
#237 = LINE ( 'NONE', #317, #169 ) ;
#238 = VERTEX_POINT ( 'NONE', #79 ) ;
#239 = DIRECTION ( 'NONE',  ( 0.000000000000000000, 0.000000000000000000, 1.000000000000000000 ) ) ;
#240 = APPROVAL_PERSON_ORGANIZATION ( #35, #106, #108 ) ;
#241 = ORIENTED_EDGE ( 'NONE', *, *, #118, .F. ) ;
#242 = CIRCLE ( 'NONE', #291, 12.69999999999999929 ) ;
#243 = AXIS2_PLACEMENT_3D ( 'NONE', #255, #207, #134 ) ;
#244 = EDGE_CURVE ( 'NONE', #125, #131, #300, .T. ) ;
#245 = DIRECTION ( 'NONE',  ( 0.000000000000000000, 0.000000000000000000, 1.000000000000000000 ) ) ;
#246 = AXIS2_PLACEMENT_3D ( 'NONE', #88, #69, #319 ) ;
#247 = ORIENTED_EDGE ( 'NONE', *, *, #28, .T. ) ;
#248 = ORIENTED_EDGE ( 'NONE', *, *, #272, .T. ) ;
#249 = DIRECTION ( 'NONE',  ( 0.000000000000000000, 0.000000000000000000, 1.000000000000000000 ) ) ;
#250 = ADVANCED_FACE ( 'NONE', ( #32 ), #132, .F. ) ;
#251 = ORIENTED_EDGE ( 'NONE', *, *, #331, .T. ) ;
#252 = DIRECTION ( 'NONE',  ( 1.000000000000000000, 0.000000000000000000, 0.000000000000000000 ) ) ;
#253 = SECURITY_CLASSIFICATION_LEVEL ( 'unclassified' ) ;
#254 = AXIS2_PLACEMENT_3D ( 'NONE', #301, #65, #275 ) ;
#255 = CARTESIAN_POINT ( 'NONE',  ( 3.000000000000000000, 12.69999999999999929, 0.000000000000000000 ) ) ;
#256 = APPROVAL_DATE_TIME ( #33, #259 ) ;
#257 = DIRECTION ( 'NONE',  ( -1.000000000000000000, -0.000000000000000000, -0.000000000000000000 ) ) ;
#258 = DATE_TIME_ROLE ( 'classification_date' ) ;
#259 = APPROVAL ( #284, 'UNSPECIFIED' ) ;
#260 = APPLICATION_PROTOCOL_DEFINITION ( 'international standard', 'config_control_design', 1994, #126 ) ;
#261 = DIRECTION ( 'NONE',  ( 0.000000000000000000, 0.000000000000000000, 1.000000000000000000 ) ) ;
#262 = CIRCLE ( 'NONE', #246, 6.349999999999999645 ) ;
#263 = DIRECTION ( 'NONE',  ( -1.000000000000000000, -0.000000000000000000, -0.000000000000000000 ) ) ;
#264 = DIRECTION ( 'NONE',  ( -1.000000000000000000, 0.000000000000000000, -0.000000000000000000 ) ) ;
#265 = UNCERTAINTY_MEASURE_WITH_UNIT (LENGTH_MEASURE( 1.000000000000000082E-05 ), #149, 'distance_accuracy_value', 'NONE');
#266 = DIRECTION ( 'NONE',  ( 0.000000000000000000, 0.000000000000000000, 1.000000000000000000 ) ) ;
#267 = ORIENTED_EDGE ( 'NONE', *, *, #320, .T. ) ;
#268 = CIRCLE ( 'NONE', #24, 6.349999999999999645 ) ;
#269 = AXIS2_PLACEMENT_3D ( 'NONE', #184, #182, #203 ) ;
#270 = CIRCLE ( 'NONE', #17, 6.349999999999999645 ) ;
#271 = CIRCLE ( 'NONE', #177, 6.349999999999999645 ) ;
#272 = EDGE_CURVE ( 'NONE', #238, #227, #7, .T. ) ;
#273 = LINE ( 'NONE', #145, #153 ) ;
#274 = ADVANCED_FACE ( 'NONE', ( #179 ), #113, .F. ) ;
#275 = DIRECTION ( 'NONE',  ( 0.000000000000000000, 0.000000000000000000, 1.000000000000000000 ) ) ;
#276 = ORIENTED_EDGE ( 'NONE', *, *, #141, .F. ) ;
#277 = ORIENTED_EDGE ( 'NONE', *, *, #307, .T. ) ;
#278 =( NAMED_UNIT ( * ) PLANE_ANGLE_UNIT ( ) SI_UNIT ( $, .RADIAN. ) );
#279 = ADVANCED_FACE ( 'NONE', ( #3 ), #223, .F. ) ;
#280 = ORIENTED_EDGE ( 'NONE', *, *, #298, .F. ) ;
#281 = CARTESIAN_POINT ( 'NONE',  ( 3.000000000000000000, 1.555301434917138433E-15, -12.69999999999999929 ) ) ;
#282 = APPROVAL_DATE_TIME ( #130, #314 ) ;
#283 = CARTESIAN_POINT ( 'NONE',  ( 1.500000000000000888, 7.776507174585692163E-16, -6.349999999999999645 ) ) ;
#284 = APPROVAL_STATUS ( 'not_yet_approved' ) ;
#285 = ORIENTED_EDGE ( 'NONE', *, *, #176, .F. ) ;
#286 = DIRECTION ( 'NONE',  ( -1.000000000000000000, -0.000000000000000000, -0.000000000000000000 ) ) ;
#287 = APPROVAL_ROLE ( '' ) ;
#288 = PRODUCT_RELATED_PRODUCT_CATEGORY ( 'detail', '', ( #72 ) ) ;
#289 = DIRECTION ( 'NONE',  ( 0.000000000000000000, 0.000000000000000000, 1.000000000000000000 ) ) ;
#290 = DIRECTION ( 'NONE',  ( -1.000000000000000000, -0.000000000000000000, -0.000000000000000000 ) ) ;
#291 = AXIS2_PLACEMENT_3D ( 'NONE', #94, #326, #22 ) ;
#292 = LOCAL_TIME ( 17, 2, 15.00000000000000000, #84 ) ;
#293 = ORIENTED_EDGE ( 'NONE', *, *, #82, .T. ) ;
#294 = DIRECTION ( 'NONE',  ( -1.000000000000000000, -0.000000000000000000, -0.000000000000000000 ) ) ;
#295 = DIRECTION ( 'NONE',  ( -1.000000000000000000, -0.000000000000000000, -0.000000000000000000 ) ) ;
#296 = DIRECTION ( 'NONE',  ( -1.000000000000000000, -0.000000000000000000, -0.000000000000000000 ) ) ;
#297 = AXIS2_PLACEMENT_3D ( 'NONE', #200, #111, #98 ) ;
#298 = EDGE_CURVE ( 'NONE', #198, #76, #271, .T. ) ;
#299 = ADVANCED_FACE ( 'NONE', ( #308 ), #151, .F. ) ;
#300 = CIRCLE ( 'NONE', #124, 6.349999999999999645 ) ;
#301 = CARTESIAN_POINT ( 'NONE',  ( -1.614212418857619014, 0.000000000000000000, 0.000000000000000000 ) ) ;
#302 = CARTESIAN_POINT ( 'NONE',  ( -2.999999999999999556, 0.000000000000000000, 0.000000000000000000 ) ) ;
#303 = VERTEX_POINT ( 'NONE', #15 ) ;
#304 = DIRECTION ( 'NONE',  ( -1.000000000000000000, -0.000000000000000000, -0.000000000000000000 ) ) ;
#305 = PRODUCT_DEFINITION_FORMATION_WITH_SPECIFIED_SOURCE ( 'ANY', '', #72, .NOT_KNOWN. ) ;
#306 = ORIENTED_EDGE ( 'NONE', *, *, #82, .F. ) ;
#307 = EDGE_CURVE ( 'NONE', #303, #152, #60, .T. ) ;
#308 = FACE_OUTER_BOUND ( 'NONE', #150, .T. ) ;
#309 = ORIENTED_EDGE ( 'NONE', *, *, #143, .T. ) ;
#310 = MECHANICAL_CONTEXT ( 'NONE', #56, 'mechanical' ) ;
#311 = PLANE ( 'NONE',  #243 ) ;
#312 = COORDINATED_UNIVERSAL_TIME_OFFSET ( 8, 0, .AHEAD. ) ;
#313 = VERTEX_POINT ( 'NONE', #281 ) ;
#314 = APPROVAL ( #229, 'UNSPECIFIED' ) ;
#315 = PERSON_AND_ORGANIZATION ( #89, #51 ) ;
#316 = CIRCLE ( 'NONE', #216, 6.349999999999999645 ) ;
#317 = CARTESIAN_POINT ( 'NONE',  ( -1.614212418857619014, 0.000000000000000000, 12.69999999999999929 ) ) ;
#318 = APPROVAL_ROLE ( '' ) ;
#319 = DIRECTION ( 'NONE',  ( 0.000000000000000000, 0.000000000000000000, -1.000000000000000000 ) ) ;
#320 = EDGE_CURVE ( 'NONE', #131, #125, #316, .T. ) ;
#321 = DIRECTION ( 'NONE',  ( -1.000000000000000000, -0.000000000000000000, -0.000000000000000000 ) ) ;
#322 = LOCAL_TIME ( 17, 2, 15.00000000000000000, #75 ) ;
#323 = DIRECTION ( 'NONE',  ( 0.000000000000000000, 0.000000000000000000, -1.000000000000000000 ) ) ;
#324 = DIRECTION ( 'NONE',  ( -1.000000000000000000, -0.000000000000000000, -0.000000000000000000 ) ) ;
#325 = VECTOR ( 'NONE', #257, 1000.000000000000000 ) ;
#326 = DIRECTION ( 'NONE',  ( -1.000000000000000000, -0.000000000000000000, -0.000000000000000000 ) ) ;
#327 = VECTOR ( 'NONE', #123, 1000.000000000000000 ) ;
#328 = FACE_OUTER_BOUND ( 'NONE', #181, .T. ) ;
#329 = ADVANCED_FACE ( 'NONE', ( #180, #61 ), #47, .F. ) ;
#330 = ORIENTED_EDGE ( 'NONE', *, *, #90, .T. ) ;
#331 = EDGE_CURVE ( 'NONE', #238, #166, #262, .T. ) ;
#332 = EDGE_LOOP ( 'NONE', ( #201, #267 ) ) ;
#333 = CARTESIAN_POINT ( 'NONE',  ( -1.614212418857619014, 0.000000000000000000, 0.000000000000000000 ) ) ;
#334 = AXIS2_PLACEMENT_3D ( 'NONE', #114, #192, #323 ) ;
#335 = CIRCLE ( 'NONE', #71, 6.349999999999999645 ) ;
ENDSEC;
END-ISO-10303-21;
